Chord Gitar Avenged Sevenfold – God Hates Us (Tabs) dan Lirik Lagu

Tuning:Dropped D

e|--5----5----3---3-----1---1----0----0----------------------|
B|-- 6----6----5---5-----3---3----3----3---------------------|
G|----7----7----5---5-----2---2----3----3-0------------------|(x4)
D|------0---0----0---0-----0---0-----0-----------------------|
A|-----------------------------------------------------------|
D|-----------------------------------------------------------|

e|---5---8---3--8----3--5------1-3-1-------------|
B|---6---10--5--10---5--6--8-6-3-5-3--3----------|
G|------------------------------------3----------|
D|-----------------------------------------------|(x2)
A|-----------------------------------------------|
D|-----------------------------------------------|

e|--------------------9--12--------|
B|-2---2-3-5-8-6-5-6--10-10--------|
G|-3-3-----------------------------|
D|---------------------------------|
A|---------------------------------|
D|---------------------------------|

e|-------------------------------------------------|
B|-------------------------------------------------|
G|-7------------7-------5-----8-7------------------|
D|-7------------7-------5-----8-7------------------|(x6)
A|-5------------5--0-0--3-0-0-6-5------------------|
D|--0-0-0-0-0-0----0-0----0-0----------------------|

e|-------------------------------------|
B|-------------------------------------|
G|-------------------------------------|
D|-7----5-----8--------8-8-------------|
A|-5----3-00--6--1-1-1-6-6-------------|
D|--0-0---00-----1-1-1-----------------|

e|-------------------------------------|
B|-------------------------------------|
G|---7-7-5--8-----10-10-10--8-7--------|
D|-------------------------------------|
A|-0-5-5-3--6--0--8--8--8---6-5--------|
D|-0-----------0-----------------------|

e|-------------------------------------|
B|-------------------------------------|
G|---7-7-5-8---------------------------|
D|-------------------------------------|
A|-0-5-5-3-6----0-0----1-1-1--1-0------|
D|-0------------0-0----1-1-1--1-0------|

e|--------------------------------------------------------------------------|
B|--------------------------------------------------------------------------|
G|--------------------------------------------------------------------------|
D|--------------------------------------------------------------------------|
A|--------------------------------------------------------------------10-9--|
D|--0-0-12-0-10-0-13-0-12-0-0-10-0-10-12--0-0-12-0-10-0-0-13-0-0-12-0---0---|


e|--------------------------------------------------------------------------|
B|--------------------------------------------------------------------------|
G|--------------------------------------------------------------------------|
D|--------------------------------------------------------------------------|
A|--------------------------------------------------------3-6-9-------------|
D|--0-0-12-0-10-0-13-0-12-0-0-10-0-10-12--0-0-12-0-10-0-0-3-6-9-------------|

e|----------------------------------|
B|----------------------------------|
G|----------------------------------|
D|----------------------------------|
A|-0--6--3--9--6--3-6-3--9--6-------|
D|-0--6--3--9--6--3-6-3--9--6-------|


e|-------------------------------------|
B|-------------------------------------|
G|---7-7-5--8-----10-10-10--8-7--------|
D|-------------------------------------|
A|-0-5-5-3--6--0--8--8--8---6-5--------|
D|-0-----------0-----------------------|

e|-------------------------------------|
B|-------------------------------------|
G|---7-7-5-8---------------------------|
D|-------------------------------------|
A|-0-5-5-3-6----0-0----1-1-1--1-0------|
D|-0------------0-0----1-1-1--1-0------|

e|-------------------------------------|
B|-------------------------------------|
G|---7-7-5--8-----10-10-10--8-7--------|
D|-------------------------------------|
A|-0-5-5-3--6--0--8--8--8---6-5--------|
D|-0-----------0-----------------------|

e|--------------------------------------|
B|--------------------------------------|
G|---7-7-5-8----------------------------|
D|--------------------------------------|
A|-0-5-5-3-6----0-0----1-1-1--1-0-------|
D|-0------------0-0----1-1-1--1-0-------|

e|--------------------------------------------------------------------------|
B|--------------------------------------------------------------------------|
G|--------------------------------------------------------------------------|
D|--------------------------------------------------------------------------|
A|--------------------------------------------------------------------10-9--|
D|--0-0-12-0-10-0-13-0-12-0-0-10-0-10-12--0-0-12-0-10-0-0-13-0-0-12-0---0---|


e|--------------------------------------------------------------------------|
B|--------------------------------------------------------------------------|
G|--------------------------------------------------------------------------|
D|--------------------------------------------------------------------------|
A|--------------------------------------------------------3-6-9-------------|
D|--0-0-12-0-10-0-13-0-12-0-0-10-0-10-12--0-0-12-0-10-0-0-3-6-9-------------|

e|--------------------------------------------------------------------------|
B|--------------------------------------------------------------------------|
G|--------------------------------------------------------------------------|
D|--------------------------------------------------------------------------|
A|--------------------------------------------------------------------10-9--|
D|--0-0-12-0-10-0-13-0-12-0-0-10-0-10-12--0-0-12-0-10-0-0-13-0-0-12-0---0---|


e|--------------------------------------------------------------------------|
B|--------------------------------------------------------------------------|
G|--------------------------------------------------------------------------|
D|--------------------------------------------------------------------------|
A|--------------------------------------------------------3--6--9-----------|
D|--0-0-12-0-10-0-13-0-12-0-0-10-0-10-12--0-0-12-0-10-0-0-3-6-9-------------|


[Solo]

e|-10-13-10----16---10-13--16----------|
B|-13-16-13----19---13-16--19----------|
G|-------------------------------------|(x2)
D|-------------------------------------|
A|-------------------------------------|
D|-------------------------------------|

e|-10--13----10---13------16---13------|
B|---9--12-----9---12-------15--12-----|
G|-------------------------------------|
D|-------------------------------------|
A|-------------------------------------|
D|-------------------------------------|

e|-13-10----16-13-----13-10-----16-13-----|
B|------12--------15--------12--------15--|
G|----------------------------------------|
D|----------------------------------------|
A|----------------------------------------|
D|----------------------------------------|

e|-13-10------10-7---------------------|
B|------12---------9-------------------|
G|---------13--------10----------------|
D|-------------------------------------|
A|-------------------------------------|
D|-------------------------------------|

e|-------------------------------------|
B|-------------------------------------|
G|-----7 divebomb----------------------|
D|-------------------------------------|
A|-------------------------------------|
D|-------------------------------------|


e|-------------------------------------|
B|----------------10-13^15-------------|
G|--------10-12-13---------------------|
D|--11-12------------------------------|
A|-------------------------------------|
D|-------------------------------------|


e|-------------------------------------|
B|-------------------------------------|
G|-----7 divebomb----------------------|
D|-------------------------------------|
A|-------------------------------------|
D|-------------------------------------|

i cant figure out this part of the SOLO, so someone will have to do it XD

e|------------------------------------|
B|------------18-15-18----------------|
G|-7-10-14-13-------------------------|tremolo picking
D|------------------------------------|
A|------------------------------------|
D|------------------------------------|

e|---------------------------17-20^22-|
B|--------------12-13-15--20----------|
G|-----13-14-15-----------------------|
D|------------------------------------|
A|------------------------------------|
D|------------------------------------|



************************************

| ^ bend up

************************************

Baca selengkapnya ›

Streaming Lagu Avenged Sevenfold – God Hates Us (Tabs):

Lagu yang Berjudul God Hates Us (Tabs) ini merupakan salah satu lagu dari album Nightmare Deluxe Edition yang dirilis pada tahun 2010 dan dipopulerkan oleh Avenged Sevenfold. Lagu ini bergenre Rock Barat, telah dilihat sebanyak 65x dan terakhir diperbaharui pada 30 September 2021 oleh Admin.

Bagikan halaman ini:

Share to WhatsApp Share to Facebook Share to Twitter Share to Line
Kritik, Saran dan Request Chord, Silahkan Tinggalkan Di Kolom Komentar:


Disclaimer

Kami melakukan upload manual, Apabila ada kesalahan ataupun kekurangan dari Chord Gitar, Lirik Lagu ataupun Video Youtube, mohon untuk memberitahu kami melalui eMail: chordgitarnet[at]gmail.com.

Chord Gitar, Lirik Lagu dan Video Youtube yang ditampilkan di ChordGitar.Net hanya bertujuan sebagai pembelajaran dan referensi saja. kami tidak menyediakan link download mp3 maupun video, dan jangan lupa tonton video Avenged Sevenfold - God Hates Us (Tabs) di youtube: https://youtube.com/watch?v=E_eHDgYFWrY.

Search Keyword: Avenged Sevenfold God Hates Us (Tabs)