Chord Gitar Avenged Sevenfold – Natural Born Killer (Tabs) dan Lirik Lagu

[Intro]

e|-------------------------------------------------------------------------|
B|-------------------------------------------------------------------------|
G|-------------------------------------------------------------------------|
D|-------------------------------------------------------------------------|
A|-----------------------------------------------------8-/-11--------------|
D|--0-0-0-0-12-0-0-0-11-0-0-0-12-0-0-0-8-0-0-0-7-0-0-0-8-/-11--------------| x8


e|-------------------------------------------------------------------------|
B|-------------------------------------------------------------------------|
G|-------------------------------------------------------------------------|
D|-------------------------------------------------------------------------|
A|-------------------------------------------------------------------------|
D|-1-1-1-1-1-1-1-1-1-1-1-1-1-1-1-1-1-1-1-1-1-1-1-1-1-1-1-1-1-1-1-1----PING-|


[Main Riff]

e|-------------------------------------------------------------------------|
B|-------------------------------------------------------------------------|
G|-------------------------------------------------------------------------|
D|-------------------------------------------------------------------------|
A|--0----------------------------------------------------------------------|
D|--0--0-0-0-0-3p0-5p0-7p0-6p0-5p0-3p0-0-0-0-0-0-0-0-0-0000000000000000----| x2


[Verse]

e|-------------------------------------------------------------------------|
B|-------------------------------------------------------------------------|
G|-------------------------------------------------------------------------|
D|------------------------3-/-6--------------------------------------------|
A|--0---------------------1-/-4--------------------------------------------|
D|--0--0-0-0-0-0-0-0-0-0-0-------------------------------------------------| x2


e|-------------------------------------------------------------------------|
B|-------------------------------------------------------------------------|
G|-------------------------------------------------------------------------|
D|-------------------------------------------------------------------------|
A|--0----------------------------------------------------------------------|
D|--0-0-0-0-0-0-0-0-0-0-0-0-0-0-0-0-5p0-7p0-8p0-7p0-5p0-7p0-5p0-7p0--------|


e|-------------------------------------------------------------------------|
B|-------------------------------------------------------------------------|
G|-------------------------------------------------------------------------|
D|--8----8----8--8----8----8--8----8----8--88888888-/-10-------------------|
A|--6----6----6--6----6----6--6----6----6--66666666-/-8--------------------|
D|-------------------------------------------------------------------------|


e|-------------------------------------------------------------------------|
B|-------------------------------------------------------------------------|
G|-------------------------------------------------------------------------|
D|------------------------3-/-6--------------------------------------------|
A|--0---------------------1-/-4--------------------------------------------|
D|--0--0-0-0-0-0-0-0-0-0-0-------------------------------------------------| x2


e|-------------------------------------------------------------------------|
B|-------------------------------------------------------------------------|
G|-------------------------------------------------------------------------|
D|--8----8----8--8----8----8--8----8----8--88888888-/-10-------------------|
A|--6----6----6--6----6----6--6----6----6--66666666-/-8--------------------|
D|-------------------------------------------------------------------------|


e|-------------------------------------------------------------------------|
B|-------------------------------------------------------------------------|
G|-------------------------------------------------------------------------|
D|-------------------------------------------------------------------------|
A|--0----------------------------------------------------------------------|
D|--0--0-0-0-0-3p0-5p0-7p0-6p0-5p0-3p0-0-0-0-0-0-0-0-0-0000000000000000----|


[Pre-Chorus]

e|-------------------------------------------------------------------------|
B|-------------------------------------------------------------------------|
G|-------------------------------------------------------------------------|
D|-10~~~~~~~~--7~~~~~~~~--10~~~~~~~--10~~~~~~~~----------------------------|
A|--8~~~~~~~~--5~~~~~~~~--8~~~~~~~~--10~~~~~~~~--12~~~~~~~~----------------|
D|--8~~~~~~~~--5~~~~~~~~--8~~~~~~~~--10~~~~~~~~--11~~~~~~~~----------------|


[Chorus]

e|-------------------------------------------------------------------------|
B|-------------------------------------------------------------------------|
G|-------------------------------------------------------------------------|
D|--0--0--0-0--7--7--7-7--8--8--8-8--5-5-5-5-5-5-5-5-----------------------|
A|--0--0--0-0--7--7--7-7--8--8--8-8--5-5-5-5-5-5-5-5-----------------------|
D|--0--0--0-0--7--7--7-7--8--8--8-8--5-5-5-5-5-5-5-5-----------------------| x4


e|-------------------------------------------------------------------------|
B|-------------------------------------------------------------------------|
G|-------------------------------------------------------------------------|
D|--8-8--8-8--8-8--8-8--8--------------------------------------------------|
A|--6-6--6-6--6-6--6-6--6--------------------------------------------------|
D|-------------------------------------------------------------------------|


[Post-Chorus]

e|-------------------------------------------------------------------------|
B|-------------------------------------------------------------------------|
G|-------------------------------------------------------------------------|
D|-------------------------------------------------------------------------|
A|--0----------------------------------------------------------------------|
D|--0--0-0-0-0-3p0-5p0-7p0-6p0-5p0-3p0-0-0-0-0-0-0-0-0-0000000000000000----| x2


[Verse]

e|-------------------------------------------------------------------------|
B|-------------------------------------------------------------------------|
G|-------------------------------------------------------------------------|
D|------------------------3-/-6--------------------------------------------|
A|--0---------------------1-/-4--------------------------------------------|
D|--0--0-0-0-0-0-0-0-0-0-0-------------------------------------------------| x2


e|-------------------------------------------------------------------------|
B|-------------------------------------------------------------------------|
G|-------------------------------------------------------------------------|
D|-------------------------------------------------------------------------|
A|--0----------------------------------------------------------------------|
D|--0-0-0-0-0-0-0-0-0-0-0-0-0-0-0-0-5p0-7p0-8p0-7p0-5p0-7p0-5p0-7p0--------|


e|-------------------------------------------------------------------------|
B|-------------------------------------------------------------------------|
G|-------------------------------------------------------------------------|
D|--8----8----8--8----8----8--8----8----8--88888888-/-10-------------------|
A|--6----6----6--6----6----6--6----6----6--66666666-/-8--------------------|
D|-------------------------------------------------------------------------|


e|-------------------------------------------------------------------------|
B|-------------------------------------------------------------------------|
G|-------------------------------------------------------------------------|
D|------------------------3-/-6--------------------------------------------|
A|--0---------------------1-/-4--------------------------------------------|
D|--0--0-0-0-0-0-0-0-0-0-0-------------------------------------------------| x2


e|-------------------------------------------------------------------------|
B|-------------------------------------------------------------------------|
G|-------------------------------------------------------------------------|
D|--8----8----8--8----8----8--8----8----8--88888888-/-10-------------------|
A|--6----6----6--6----6----6--6----6----6--66666666-/-8--------------------|
D|-------------------------------------------------------------------------|


e|-------------------------------------------------------------------------|
B|-------------------------------------------------------------------------|
G|-------------------------------------------------------------------------|
D|-------------------------------------------------------------------------|
A|--0----------------------------------------------------------------------|
D|--0--0-0-0-0-3p0-5p0-7p0-6p0-5p0-3p0-0-0-0-0-0-0-0-0-0000000000000000----|


e|-------------------------------------------------------------------------|
B|-------------------------------------------------------------------------|
G|-------------------------------------------------------------------------|
D|-10~~~~~~~~--7~~~~~~~~--10~~~~~~~--10~~~~~~~~----------------------------|
A|--8~~~~~~~~--5~~~~~~~~--8~~~~~~~~--10~~~~~~~~--12~~~~~~~~----------------|
D|--8~~~~~~~~--5~~~~~~~~--8~~~~~~~~--10~~~~~~~~--11~~~~~~~~----------------|


[Chorus]

e|-------------------------------------------------------------------------|
B|-------------------------------------------------------------------------|
G|-------------------------------------------------------------------------|
D|--0--0--0-0--7--7--7-7--8--8--8-8--5-5-5-5-5-5-5-5-----------------------|
A|--0--0--0-0--7--7--7-7--8--8--8-8--5-5-5-5-5-5-5-5-----------------------|
D|--0--0--0-0--7--7--7-7--8--8--8-8--5-5-5-5-5-5-5-5-----------------------| x4


e|-------------------------------------------------------------------------|
B|-------------------------------------------------------------------------|
G|-------------------------------------------------------------------------|
D|--8-8--8-8--8-8--8-8--8--------------------------------------------------|
A|--6-6--6-6--6-6--6-6--6--------------------------------------------------|
D|-------------------------------------------------------------------------|


[Guitar Harmony]

e|-------------------------------------------------------------------------|
B|-------------------------------------------------------------------------|
G|-------------------------------------------------------------------------|
D|--5---5-5--0--1---1-1--0--13--------------13--12---10--------------8--7--|
A|--5---5-5--0--1---1-1--0--13--------------13--12---10--------------8--7--|
D|--5---5-5--0--1---1-1--0--13--13-13-13-13-13--12---10--10-10-10-10-8--7--| x4


[Bridge]

e|-------------------------------------------------------------------------|
B|-------------------------------------------------------------------------|
G|-------------------------------------------------------------------------|
D|--5---5-5--0--1---1-1--0--13--------------13--12---10--------------8--7--|
A|--5---5-5--0--1---1-1--0--13--------------13--12---10--------------8--7--|
D|--5---5-5--0--1---1-1--0--13--13-13-13-13-13--12---10--10-10-10-10-8--7--| x4


e|-------------------------------------------------------------------------|
B|-------------------------------------------------------------------------|
G|-------------------------------------------------------------------------|
D|--/13-13---13-13---13-13---13-13---13---13\------------------------------|
A|--/13-13---13-13---13-13---13-13---13---13\---1---1---1---1---1----------|
D|--/13-13---13-13---13-13---13-13---13---13\---1---1---1---1---1----------|


[Solo]

e|-------------------------------------------------------------------------|
B|-------------------------------------------------------------------------|
G|-------------------------------------------------------------------------|
D|-------------------------------------------------------------------------|
A|--0----------------------------------------------------------------------|
D|--0--0-0-0-0-3p0-5p0-7p0-6p0-5p0-3p0-0-0-0-0-0-0-0-0-0000000000000000----| x2


e|-------------------------------------------------------------------------|
B|-------------------------------------------------------------------------|
G|-------------------------------------------------------------------------|
D|--8----8----8--8----8----8--8----8----8--88888888-/-10-------------------|
A|--6----6----6--6----6----6--6----6----6--66666666-/-8--------------------|
D|-------------------------------------------------------------------------|


e|-------------------------------------------------------------------------|
B|-------------------------------------------------------------------------|
G|-------------------------------------------------------------------------|
D|-------------------------------------------------------------------------|
A|--0----------------------------------------------------------------------|
D|--0--0-0-0-0-3p0-5p0-7p0-6p0-5p0-3p0-0-0-0-0-0-0-0-0-0000000000000000----|


e|-------------------------------------------------------------------------|
B|-------------------------------------------------------------------------|
G|-------------------------------------------------------------------------|
D|--10-1010--1010----1010-10101010\5--5-5--5-5--5-5--5-5-5-5---------------|
A|--8--1010--1010----1010-10101010\5--5-5--5-5--5-5--5-5-5-5---------------|
D|--8--8-8---8-8-----8-8--8-8-8-8-\5--5-5--5-5--5-5--5-5-5-5---------------| x3


e|-------------------------------------------------------------------------|
B|-------------------------------------------------------------------------|
G|-------------------------------------------------------------------------|
D|--10-1010--1010----1010-10101010\-12-12-12-12-12-12-12-12----------------|
A|--8--1010--1010----1010-10101010\-10-10-10-10-10-10-10-10----------------|
D|--8--8-8---8-8-----8-8--8-8-8-8-\-10-10-10-10-10-10-10-10----------------|


e|-------------------------------------------------------------------------|
B|-------------------------------------------------------------------------|
G|-------------------------------------------------------------------------|
D|--14-14-14-14-14-14-14-14------------------------------------------------|
A|--12-12-12-12-12-12-12-12------------------------------------------------|
D|--11-11-11-11-11-11-11-11------------------------------------------------|


e|-------------------------------------------------------------------------|
B|-------------------------------------------------------------------------|
G|-------------------------------------------------------------------------|
D|--0--0--0-0--7--7--7-7--8--8--8-8--5-5-5-5-5-5-5-5-----------------------|
A|--0--0--0-0--7--7--7-7--8--8--8-8--5-5-5-5-5-5-5-5-----------------------|
D|--0--0--0-0--7--7--7-7--8--8--8-8--5-5-5-5-5-5-5-5-----------------------| x4


e|-------------------------------------------------------------------------|
B|-------------------------------------------------------------------------|
G|-------------------------------------------------------------------------|
D|-------------------------------------------------------------------------|
A|-------------------------------------------------------------------------|
D|--0-0-0-0-0-0-0-0--7-7-7-7-7-7-7-7--8-8-8-8-8-8-8-8--5-5-5-5-5-5-5-5-----| x4


e|-------------------------------------------------------------------------|
B|-------------------------------------------------------------------------|
G|-------------------------------------------------------------------------|
D|--/13-13---13-13---13-13---13-13---13---13\------------------------------|
A|--/13-13---13-13---13-13---13-13---13---13\---1---1---1---1---1----------|
D|--/13-13---13-13---13-13---13-13---13---13\---1---1---1---1---1----------|


************************************

| p  Pull-off
| /  Slide up
| ~  Vibrato

************************************

Baca selengkapnya ›

Streaming Lagu Avenged Sevenfold – Natural Born Killer (Tabs):

Lagu yang Berjudul Natural Born Killer (Tabs) ini merupakan salah satu lagu dari album Nightmare Deluxe Edition yang dirilis pada tahun 2010 dan dipopulerkan oleh Avenged Sevenfold. Lagu ini bergenre Rock Barat, telah dilihat sebanyak 48x dan terakhir diperbaharui pada 30 September 2021 oleh Admin.

Bagikan halaman ini:

Share to WhatsApp Share to Facebook Share to Twitter Share to Line
Kritik, Saran dan Request Chord, Silahkan Tinggalkan Di Kolom Komentar:


Disclaimer

Kami melakukan upload manual, Apabila ada kesalahan ataupun kekurangan dari Chord Gitar, Lirik Lagu ataupun Video Youtube, mohon untuk memberitahu kami melalui eMail: chordgitarnet[at]gmail.com.

Chord Gitar, Lirik Lagu dan Video Youtube yang ditampilkan di ChordGitar.Net hanya bertujuan sebagai pembelajaran dan referensi saja. kami tidak menyediakan link download mp3 maupun video, dan jangan lupa tonton video Avenged Sevenfold - Natural Born Killer (Tabs) di youtube: https://youtube.com/watch?v=68SgSalvrVY.

Search Keyword: Avenged Sevenfold Natural Born Killer (Tabs)