Chord Gitar Avenged Sevenfold – Planets (Tabs) dan Lirik Lagu

Tuning - D-A-D-G-B-E (Drop D)


   Pre-Intro Guitar 1 Only
E|----------------------------------------------------------------|
B|----------------------------------------------------------------|
G|----------------------------------------------------------------|
D|----------------------------------------------------------------|
A|-0--------------1------------4------1-----0---------------------|
D|-0--------------1------------4------1-----0---------------------|
  *Vol. Swell


   Intro Guitar 1 (x12)  (((GUITAR 2 DOES PRE-INTRO)))
E|----------------------------------------------------------------|
B|----------------------------------------------------------------|
G|----------------------------------------------------------------|
D|----------------------------------------------------------------|
A|--3h5h6--3h5h6--3h5h6--3h5h6--3h5h6~~~~~~~----------------------|
D|-0------0------0------0------0----------------------------------|
PM .      .      .      .      .
 |
 | Intro Guitar 2 (Starts after x8 of Guitar 1)
E|----------------------------------------------------------------|
B|----------------------------------------------------------------|
G|----------------------------------------------------------------|
D|----------------------------------------------------------------|
A|-----0-----0-----0-----0-----0-------1-----1-----1-----1-----1--|
D|-0-0-0-0-0-0-0-0-0-0-0-0-0-0-0---1-1-1-1-1-1-1-1-1-1-1-1-1-1-1--|
PM . .   . .   . .   . .   . .     . .   . .   . .   . .   . . 

  Intro Guitar 2 (Continued)
E|----------------------------------------------------------------|
B|----------------------------------------------------------------|
G|----------------------------------------------------------------|
D|----------------------------------------------------------------|
A|-----4-----4-----4-----4---1---0---------------------1----------|
D|-4-4-4-4-4-4-4-4-4-4-4-4-4-1---0---------------------1----------|



  Verse Guitar 1&2   (x2)
E|----------------------------------------------------------------|
B|----------------------------------------------------------------|
G|----------------------------------------------------------------|
D|----------------------------------------------------------------|
A|-0----------0---0----------0---0----4-------4-1----------3h5h6--|
D|-0----0-0-0-0-0-0----0-0-0-0-0-0----4-4-4-4-4-1----1-1-1--------|
PM      . . .   .      . . .   .        . . .        . . .


   Pre-Chorus  Guitar 1&2
E|----------------------------------------------------------------|
B|----------------------------------------------------------------|
G|----------------------------------------------------------------|
D|----------------------------------------------------------------|
A|-2--------2---2---------1----5----2--------2---2--------1----5--|
D|-2--2-2-2-2-2-2-----2-2-1----5----2--2-2-2-2-2-2---2-2--1----5--|
PM    . . .   .       . .              . . .   .     . . 

  Pre-Chorus Guitar 1&2 (Continued)
E|----------------------------------------------------------------|
B|----------------------------------------------------------------|
G|----------------------------------------------------------------|
D|----------------------------------------------------------------|
A|-4---------4---4---------3---7---4--------4-----3---7---4-------|
D|-4---4-4-4-4-4-4-----4-4-3---7---4--4-4-4-4-4-4-3---7---4-------|
PM     . . .   .       . .            . . .   . .


  Chorus Guitar 1
   Mother of all,                  your time is coming.
E|----------------------------------------------------------------|
B|----------------------------------------------------------------|
G|-7-----------10-------10/14-----11--------11/14-----------14\---|
D|-x------------x--------x--x------x---------x--x------------x----|
A|-5------------8--------8/12------9---------9/12-----------12\---|
D|----------------------------------------------------------------|
 |
 |  Chorus Guitar 2
E|----------------------------------------------------------------|
B|----------------------------------------------------------------|
G|----------------------------------------------------------------|
D|----------------------------------------------------------------|
A|-0-------------3------------------4------------7-----------7\---|
D|-0-------------3------------------4------------7-----------7\---|


  Chorus Continued Guitar 1
     One with e  -  ter  -  ni  -  ty.                  When
E|----------------------------------------------------------------|
B|----------------------------------------------------------------|
G|-/7---------7////10------10/14----11----------------------------|
D|--x---------x-----x-------x--x-----x----------------------------|
A|-/5---------5////-8-------8/12-----9----------------------------|
D|----------------------------------------------------------------|
 |
 | Chorus Contined Guitar 2
E|----------------------------------------------------------------|
B|----------------------------------------------------------------|
G|----------------------------------------------------------------|
D|----------------------------------------------------------------|
A|--0---------------3----------------4----------------4-3-2--1----|
D|--0---------------3----------------4----------------4-3-2--1----|


   Chorus Continued Guitar 1  (x2)
   Plan  -  ets                           Col    -    lide!
E|----------------------------------------------------------------|
B|---10-------10-------10-------10--------10-----10-----12fbr--10-|
G|----------------------------------------------------------------|
D|----------------------------------------------------------------|
A|----------------------------------------------------------------|
D|----------------------------------------------------------------|
 |
 | Chorus Continued Guitar 2  (x2)
E|------------------------------------------------------------------------|
B|------------------------------------------------------------------------|
G|------------------------------------------------------------------------|
D|------------------------------------------------------------------------|
A|---0--------3---------7-------3---------0-------7----4----4---4-3-2-1--4|
D|---0--------3---------7-------3---------0-------7----4--0-4---4-3-2-1--4|
PM                                                        .


   Interlude Guitar 1
       (x2)
E|------------------|-------------------------------------------1620~--|
B|-101214~-101214~--|--131517~-131517~--17/2116182016-----161820-------|
G|------------------|-----------------------------------17-------------|
D|------------------|---------------------------------18---------------|
A|------------------|--------------------------------------------------|
D|------------------|--------------------------------------------------|
 |
 |  (x2) Interlude Guitar 2
E|--------------|----------------------------------------------13-15---|
B|-7910~-7910~--|--101213~-101213~~~--------13151613-----131516--------|
G|--------------|--------------------------------------13--------------|
D|--------------|------------------------------------16----------------|
A|--------------|------------------------------------------------------|
D|--------------|------------------------------------------------------|


  Guitar 1
E|----------------------------------------------------------------|
B|----------------------------------------------------------------|
G|----------------------------------------------------------------|
D|----------------------------------------------------------------|
A|--3h5h6--3h5h6--3h5h6--3h5h6--3h5h6-----------------------------|
D|-0------0------0------0------0----------------------------------|


(((VERSE)))

(((PRE-CHORUS)))

(((CHORUS)))


   2nd Interlude Guitar 1
E|----------------------------------------------------------------|
B|----------------------------------------------------9-----------|
G|--------------------------------------------11------------------|
D|--7----------7--10--7-----10--11--7-----11------11-----11-------|
A|-----9----------------------------------------------------------|
D|----------------------------------------------------------------|
 |
 | 2nd Interlude Guitar 2
E|----------------------------------------------------------------|
B|---------------------------------------------------5------------|
G|--------------------------------------------6-------------------|
D|--4----------4---7---3-----6--7--4-------7-----7-------7--------|
A|-----5----------------------------------------------------------|
D|----------------------------------------------------------------|
 |
 | 2nd Interlude Guitar 3 (This part will be referred to as RIFF B)
E|------------------------------------------------------------------------|
B|------------------------------------------------------------------------|
G|------------------------------------------------------------------------|
D|------------------------------------------------------------------------|
A|------------------------------------------------------------------------|
D|-000-0-0-000-0-0-333-3-3-333-3-3-333-3-3-444-4-4-444-4-4-444-4-4-444-4-4|



   3rd Interlude Guitar 1 (Guitar 3 of 2nd Interlude plays through 3rd INT.)
E|----------------------------------------------14----16-----16hb-|
B|-11----------10/13------------13-14-----7/14-----14----14-------|
G|----10---------------14-14--------------------------------------|
D|----------------------------------------------------------------|
A|----------------------------------------------------------------|
D|----------------------------------------------------------------|
 |
 |
E|----------------------------------------------9----12------12hb-|
B|-7-----------7/10-------------9--10-----7/10----10----10--------|
G|---7----------------10------------------------------------------|
D|----------------------------------------------------------------|
A|----------------------------------------------------------------|
D|----------------------------------------------------------------|


(((RIFF B))) (x5)

(((SECOND HALF OF CHORUS)))


   Guitar 1&2
   Plan    -    ets                                   col    -
E|----------------------------------------------------------------|
B|----------------------------------------------------------------|
G|----------------------------------------------------------------|
D|----------------------------------------------------------------|
A|-----0--0--0----------------3--3--3-----------------------------|
D|-----0--0--0----------------3--3--3-----------------------------|



   Solo Guitar 1
   -  Lide!!
E|---------5-8-9-5-9-5---8-5---------5-8-9-5-9-5----8-5-----------|
B|-------7------------7-----7-------7-----------7------7----------|
G|------6--------------6-----6-----6-------------6------6---------|
D|-----7--------------------------7-------------------------------|
A|----9--------------------------9--------------------------------|
D|----------------------------------------------------------------|
 |
 | Solo Rhythm Guitar 2
E|----------------------------------------------------------------|
B|----------------------------------------------------------------|
G|----------------------------------------------------------------|
D|----------------------------------------------------------------|
A|----4---------4----------4----------4-------4-------4-----------|
D|----4---------4----------4----------4-------4-------4-----------|


   Guitar 1
E|--------8-11-12-8-12-8----11-8------------8-11-12-8-12-8--14-9----|
B|------10--------------10------10--------10--------------------10--|
G|-----9------------------9-------9------9------------------------9-|
D|---10--------------------------------10---------------------------|
A|-12--------------------------------12-----------------------------|
D|------------------------------------------------------------------|
 |
 | Guitar 2
E|----------------------------------------------------------------|
B|----------------------------------------------------------------|
G|----------------------------------------------------------------|
D|----------------------------------------------------------------|
A|--0------------3------------7------------3-----------0-------7--|
D|--0------------3------------7------------3-----------0-------7--|


   Guitar 1
E|-1712----------12171212----------12171212----------12171212-----17fbr--|
B|-----13------13--------13------13--------13------13--------13--X-------|
G|-------14--14------------14--14------------14--14------------14--------|
D|---------16----------------16----------------16------------------------|
A|-----------------------------------------------------------------------|
D|-----------------------------------------------------------------------|
 |
 | Guitar 2
E|-------------------------------------------------------------------|
B|-------------------------------------------------------------------|
G|-------------------------------------------------------------------|
D|-------------------------------------------------------------------|
A|--4---------4----4----4----4----4----4----4----4----4----4----4---4|
D|--4---------4----4----4----4----4----4----4----4----4----4----4---4|
PM            .    .    .    .    .    .    .    .    .    .    .   .


   Guitar 1
E|--17fb--17-17fb--17-17fb--17-17fb--17-17fb---17~~---------------|
B|---------------------------------------------------------~4p0---|
G|----------------------------------------------------------------|
D|--------------------------------------------------------------4-|
A|----------------------------------------------------------------|
D|----------------------------------------------------------------|
 |
 |  Guitar 2
E|----------------------------------------------------------------|
B|----------------------------------------------------------------|
G|----------------------------------------------------------------|
D|----------------------------------------------------------------|
A|-0----------------3-----------------7-------3---------0-----7---|
D|-0----------------3-----------------7-------3---------0-----7---|


   Guitar 1 With Octaver                (Whammy bar ascent)
E|----------------------------------------------------------------|
B|----------------------------------------------------------------|
G|----------------------------------------------5w---5/13---14/16-|
D|--4-----(4)/----------------------------------------------------|
A|--------------------------------0---4---3-----------------------|
D|----------------4~~~~------~4-----------------------------------|
             (((GUITAR 2 REPEATS PREVIOUS SOLO RHYTHM)))


    Guitar 1
E|-17-14--16-14--17--16-14--17-14--16-----------------------------|
B|------14-----14--14-----14-----14--14---------------------------|
G|--------------------------------------17~~~~-17/5----5----5---6-|
D|----------------------------------------------------------------|
A|----------------------------------------------------------------|
D|----------------------------------------------------------------|
              (((GUITAR 2 REPEATS SOLO RHYTHM)))



    Guitar 1                             Octaver Off
E|---------------------------------|-------------------------------|
B|---------------------------------|---------------------1214------|
G|---6/2---------2/11~~~~~~~~~~----|---------------121415----------|
D|---------------------------------|---------121314----------------|
A|---------------------------------|-12121314----------------------|
D|---------------------------------|-------------------------------|
             (((GUITAR 2 REPEATS SOLO RHYTHM))) 



(((REPEAT PRE-CHORUS)))

   Guitar 1 Lick during Pre-Chorus
E|---------12-17-15p12--------------------------------------------|
B|-12----12-----------15p12--------12h15p12h15--------------------|
G|-----14------------------14p12h14-------------------------------|
D|----------------------------------------------------------------|
A|----------------------------------------------------------------|
D|----------------------------------------------------------------|


   Guitar 1 Lick during Pre-Chorus Continued
E|-------------------------------------------17-19-19fbr~~~~--17~~|
B|-17fb~~~~~~~~~~~~---------------12-14-15/19---------------------|
G|---------------------------12-14--------------------------------|
D|---------------------~12h14-------------------------------------|
A|----------------------------------------------------------------|
D|----------------------------------------------------------------|


(((CHORUS)))


  Outro Guitar Solo Guitar 1
E|----------------------------------------------------------------|
B|----------------------------------------------------------------|
G|-4fbrb~~~~~~~~~~~~~(4)p2--------------------------2-4-----------|
D|-------------------------4p2--4~~~~~~~~---(4)\2-4---------------|
A|----------------------------------------------------------------|
D|----------------------------------------------------------------|
 |
 | Guitar 2
E|----------------------------------------------------------------|
B|----------------------------------------------------------------|
G|----------------------------------------------------------------|
D|----------------------------------------------------------------|
A|----0---3---7---3---0--7------4---------------------------------|
D|----0---3---7---3---0--7------4---------------------------------|


   Guitar 1
E|----------------------------------------------------------------|
B|-------------------------~5p2~~~~~~-5fb~~~~~~~~r------2---------|
G|--4fbrb~~~~~~~~4~~~~~~~~----------------------------------------|
D|----------------------------------------------------------------|
A|----------------------------------------------------------------|
D|----------------------------------------------------------------|
 |
 |
E|----------------------------------------------------------------|
B|----------------------------------------------------------------|
G|----------------------------------------------------------------|
D|----------------------------------------------------------------|
A|----0---3---7---3---0--7------4---------------------------------|
D|----0---3---7---3---0--7------4---------------------------------|


  Guitar 1
E|----------------------------------------------------------------|
B|--3~~~~~~~~--3/15-----------------------------------------------|
G|------------------14\2--2-4/11\2--2fb----------------------2--4-|
D|---------------------------------------4p2-4~~~-4p2---4---------|
A|------------------------------------------4--------4p2----------|
D|----------------------------------------------------------------|
         (((GUITAR 2 - SAME AS PREVIOUS RHYTHM)))

   Guitar 1
E|----------------------------------------------------------------|
B|----------------------------------------------------------------|
G|-4fbr-p2-----4fbr-p2-2-4fbr-p2---4fbr~~~~~~------2--------------|
D|---------4p2--------4----------4-------------------4-p-2--------|
A|----------------------------------------------------------------|
D|----------------------------------------------------------------|
 |
 | Guitar 2
E|----------------------------------------------------------------|
B|----------------------------------------------------------------|
G|----------------------------------------------------------------|
D|----------------------------------------------------------------|
A|---0----------3---------7------------3-------0-----7------------|
D|---0----------3---------7------------3-------0-----7------------|

Baca selengkapnya ›

Streaming Lagu Avenged Sevenfold – Planets (Tabs):

Lagu yang Berjudul Planets (Tabs) ini merupakan salah satu lagu dari album Hail to the King Deluxe Edition yang dirilis pada tahun 2013 dan dipopulerkan oleh Avenged Sevenfold. Lagu ini bergenre Rock Barat, telah dilihat sebanyak 65x dan terakhir diperbaharui pada 30 September 2021 oleh Admin.

Bagikan halaman ini:

Share to WhatsApp Share to Facebook Share to Twitter Share to Line
Kritik, Saran dan Request Chord, Silahkan Tinggalkan Di Kolom Komentar:


Disclaimer

Kami melakukan upload manual, Apabila ada kesalahan ataupun kekurangan dari Chord Gitar, Lirik Lagu ataupun Video Youtube, mohon untuk memberitahu kami melalui eMail: chordgitarnet[at]gmail.com.

Chord Gitar, Lirik Lagu dan Video Youtube yang ditampilkan di ChordGitar.Net hanya bertujuan sebagai pembelajaran dan referensi saja. kami tidak menyediakan link download mp3 maupun video, dan jangan lupa tonton video Avenged Sevenfold - Planets (Tabs) di youtube: https://youtube.com/watch?v=ngPBQvVuxlw.

Search Keyword: Avenged Sevenfold Planets (Tabs)