Chord Gitar Avenged Sevenfold – This Means War (Tabs) dan Lirik Lagu

Instructional video from which most notation is modeled after:
https://www.youtube.com/watch?v=YprRD1WRq7A

Most recent changes by: wesf24

Tuning: Drop D (D A D G B E)


[Intro Rhythm]

                  x x x x x                     x x
E|---------------------------------------------------|
B|---------------------------------------------------|
G|--------------------------------------5------------|
D|--5-------------5-5-5-5-5---1---------5-------8-7--|
A|--5(let ring)---5-5-5-5-5---1(ring)---3(ring)-8-7--|
D|--5-------------5-5-5-5-5---1-----------------8-7--|

              x x x x x               x x x x x x x x x
E|------------------------------------------------------|
B|------------------------------------------------------|
G|------------------------------------------------------|
D|--5---------5-5-5-5-5---1-------3---3-3-3-3-3-3-3-3-3-|
A|--5(ring)---5-5-5-5-5---1(ring)-3---3-3-3-3-3-3-3-3-3-|
D|--5---------5-5-5-5-5---1-------3---3-3-3-3-3-3-3-3-3-|


[Intro Lead] x4

E|-----------------------------------------------|           E|-----------------|
B|----11----------10----------11----13-13-11-10--|           B|-8/10-10~(ring)--|
G|-12----12-12-12----12-12-12----12--------------|           G|-----------------|
D|-----------------------------------------------|           D|-----------------|
A|-----------------------------------------------| last time A|-----------------|
D|-----------------------------------------------|           D|-----------------|


[Riff] x2

                     x
E|-------------------------------------------------------|
B|-------------------------------------------------------|
G|-------------------------------------------------------|
D|--0----------------0-0-----------5----0----------------|
A|--0--8-8-6h8p6-5~--0-0-8-8-6h8p6---5~-0--8-8-6h8p6-5~--|
D|--0----------------0-0----------------0----------------|

               x x x
E|------------------------           E|----------|
B|------------------------           B|----------|
G|--5-x-7-x-8-------------           G|----------|
D|--5-x-7-x-8--0-0-0-1/3--           D|--1-------|
A|--3-x-5-x-6--0-0-0-1/3-- last time A|--1(ring)-|
D|-------------0-0-0-1/3--           D|--1-------|


[Verse] x2

      xxx xxx   xx               xxx xxx   xx
E|------------------------------------------------------------|
B|------------------------------------------------------------|
G|------------------------------------------------------------|
D|--0-000-000-0-00-------------0-000-000-0-00----------5------|
A|--0-000-000-0-008-8-6h8p6-5~-0-000-000-0-008-8-6h8p6---5~---|
D|--0-000-000-0-00-------------0-000-000-0-00-----------------|


[Pre-Chorus]

      xxxx xx   xxxx xx   xxxx xx
E|---------------------------------------------|
B|---------------------------------------------|
G|---------------------------------------------|
D|--1-1111-11-5-5555-55-0-0000-00-5-------7-8--|
A|--1-1111-11-5-5555-55-0-0000-00-5(ring)-7-8--|
D|--1-1111-11-5-5555-55-0-0000-00-5-------7-8--|

      xxxx xx   xxxx xx   xxxx xx
E|---------------------------------------------|
B|---------------------------------------------|
G|---------------------------------------------|
D|--1-1111-11-5-5555-55-0-0000-00-1-------3-1--|
A|--1-1111-11-5-5555-55-0-0000-00-1(ring)-3-1--|
D|--1-1111-11-5-5555-55-0-0000-00-1-------3-1--|


[Chorus]

E|-----------------------------------|
B|-----------------------------------|
G|-----------------------------------|
D|--5-5-5-5-5-5-5-5-5-5-5-5-7-7-8-8--|
A|--5-5-5-5-5-5-5-5-5-5-5-5-7-7-8-8--|
D|--5-5-5-5-5-5-5-5-5-5-5-5-7-7-8-8--|

E|-----------------------------------|
B|-----------------------------------|
G|------------------5-5-5-5----------|
D|--1-1-1-1-1-1-1-1-5-5-5-5-7-7-8-8--|
A|--1-1-1-1-1-1-1-1-3-3-3-3-7-7-8-8--|
D|--1-1-1-1-1-1-1-1---------7-7-8-8--|


[Chorus Lead] x2

E|-----------------------------------------------|
B|----11----------10----------11----13-13-11-10--|
G|-12----12-12-12----12-12-12----12--------------|
D|-----------------------------------------------|
A|-----------------------------------------------|
D|-----------------------------------------------|


[Riff] x2

                     x
E|--------------------------------------------------------|
B|--------------------------------------------------------|
G|--------------------------------------------------------|
D|--0----------------0-0-----------5-----0----------------|
A|--0--8-8-6h8p6-5~--0-0-8-8-6h8p6---5~--0--8-8-6h8p6-5~--|
D|--0----------------0-0-----------------0----------------|

               x x x
E|------------------------           E|----------|
B|------------------------           B|----------|
G|--5-x-7-x-8-------------           G|----------|
D|--5-x-7-x-8--0-0-0-1/3--           D|--1-------|
A|--3-x-5-x-6--0-0-0-1/3-- last time A|--1(ring)-|
D|-------------0-0-0-1/3--           D|--1-------|


[Verse] x2

      xxx xxx   xx               xxx xxx   xx
E|-----------------------------------------------------------|
B|-----------------------------------------------------------|
G|-----------------------------------------------------------|
D|--0-000-000-0-00-------------0-000-000-0-00----------5-----|
A|--0-000-000-0-008-8-6h8p6-5~-0-000-000-0-008-8-6h8p6---5~--|
D|--0-000-000-0-00-------------0-000-000-0-00----------------|


[Pre-Chorus]

      xxxx xx   xxxx xx   xxxx xx
E|---------------------------------------------|
B|---------------------------------------------|
G|---------------------------------------------|
D|--1-1111-11-5-5555-55-0-0000-00-5-------7-8--|
A|--1-1111-11-5-5555-55-0-0000-00-5(ring)-7-8--|
D|--1-1111-11-5-5555-55-0-0000-00-5-------7-8--|

      xxxx xx   xxxx xx   xxxx xx
E|---------------------------------------------|
B|---------------------------------------------|
G|---------------------------------------------|
D|--1-1111-11-5-5555-55-0-0000-00-1-------3-1--|
A|--1-1111-11-5-5555-55-0-0000-00-1(ring)-3-1--|
D|--1-1111-11-5-5555-55-0-0000-00-1-------3-1--|


[Chorus]

E|-----------------------------------|
B|-----------------------------------|
G|-----------------------------------|
D|--5-5-5-5-5-5-5-5-5-5-5-5-7-7-8-8--|
A|--5-5-5-5-5-5-5-5-5-5-5-5-7-7-8-8--|
D|--5-5-5-5-5-5-5-5-5-5-5-5-7-7-8-8--|

E|-----------------------------------|
B|-----------------------------------|
G|------------------5-5-5-5----------|
D|--1-1-1-1-1-1-1-1-5-5-5-5-7-7-8-8--|
A|--1-1-1-1-1-1-1-1-3-3-3-3-7-7-8-8--|
D|--1-1-1-1-1-1-1-1---------7-7-8-8--|


[Chorus Lead] x4

E|-----------------------------------------------|
B|----11----------10----------11----13-13-11-10--|
G|-12----12-12-12----12-12-12----12--------------|
D|-----------------------------------------------|
A|-----------------------------------------------|
D|-----------------------------------------------|


[Solo Rhythm]

      xx xx     xx xx     xx xx               x x x
E|-------------------------------------------------------|
B|-------------------------------------------------------|
G|---------------------------------5-x-7-x-8-------------|
D|--0-00-00-1-0-00-00-1-0-00-00-3--5-x-7-x-8--0-0-0-1/3--|
A|--0-00-00-1-0-00-00-1-0-00-00-3--3-x-5-x-6--0-0-0-1/3--|
D|--0-00-00-1-0-00-00-1-0-00-00-3-------------0-0-0-1/3--|

      xxxx xx   xxxx xx   xxxx xx
E|---------------------------------------------|
B|---------------------------------------------|
G|---------------------------------------------|
D|--1-1111-11-5-5555-55-0-0000-00-5-------7-8--|
A|--1-1111-11-5-5555-55-0-0000-00-5(ring)-7-8--|
D|--1-1111-11-5-5555-55-0-0000-00-5-------7-8--|

      xxxx xx   xxxx xx   xxxx xx
E|---------------------------------------------|
B|---------------------------------------------|
G|---------------------------------------------|
D|--1-1111-11-5-5555-55-0-0000-00-1-------7-8--|
A|--1-1111-11-5-5555-55-0-0000-00-1(ring)-7-8--|
D|--1-1111-11-5-5555-55-0-0000-00-1-------7-8--|


[Solo Lead]

               (Whammy)
   +        +    b     d          b     d          b     d
E|--------|-13-|-----------------------------------------------------|
B|-15-----|----|-11-11-9-10-9-10--11-11-9-10-9-10--11-11-9-10-9-10---|
G|--------|----|-----------------------------------------------------|
D|--------|----|-----------------------------------------------------|
A|--------|----|-----------------------------------------------------|
D|--------|----|-----------------------------------------------------|

   b                                              b+
E|----------------------------------------------|--------|
B|-11-10----------------------------------------|--------|
G|------10--13-10-----10------------------------|-7------|
D|--------12-----12-12----7-----7---------------|-7------|
A|---------------------------8----8--4----5-----|--------|
D|----------------------------------------------|--------|

   b+
E|--------|-------------13-12-------------------------------|
B|--------|----------15-------15-11-------------------------|
G|-14-----|-------14----------------14-13-12----------12-14-|
D|-12-----|----12----------------------------15-12-15-------|
A|--------|-12----------------------------------------------|
D|--------|-------------------------------------------------|


E|-------13-15-17-15-13-----------------------------------13-17-20-17-13---------------------|
B|----15----------------15-11---------------------------15--------------15-------------------|
G|-14-------------------------14-13-12----------------14------------------14-----------------|
D|-------------------------------------14-12----12--15----------------------15-14-13-12------|
A|-------------------------------------------13----------------------------------------15-12-|
D|-------------------------------------------------------------------------------------------|

                     b              b
E|----------------|---------|-----------|
B|-16---18-15-----|--15-----|-----------|
G|----------------|-----14--|-14-15-15--|
D|----------------|---------|-----------|
A|----------------|---------|-----------|
D|----------------|---------|-----------|


E|-----------------------------13--11-----11--11-11-13-15--|
B|-----------------13------------------15------------------|
G|-15-14-12-14--15----15-14-15-----------------------------|
D|---------------------------------------------------------|
A|---------------------------------------------------------|
D|---------------------------------------------------------|

   b
E|-15-17--15--15-17-18--18-18--17-14-17-15-14-------------------------------|
B|------15------------17---------------------17-15-16-15-----15-17-18-17-15-|
G|------------------------------------------------------14-15---------------|
D|--------------------------------------------------------------------------|
A|--------------------------------------------------------------------------|
D|--------------------------------------------------------------------------|


[Instrumental Rhythm]

                  x x x x x                     x x
E|---------------------------------------------------|
B|---------------------------------------------------|
G|--------------------------------------5------------|
D|--5-------------5-5-5-5-5---1---------5-------8-7--|
A|--5(let ring)---5-5-5-5-5---1(ring)---3(ring)-8-7--|
D|--5-------------5-5-5-5-5---1-----------------8-7--|

              x x x x x               x x x x x x x x x
E|------------------------------------------------------|
B|------------------------------------------------------|
G|------------------------------------------------------|
D|--5---------5-5-5-5-5---0-------3---3-3-3-3-3-3-3-3-3-|
A|--5(ring)---5-5-5-5-5---0(ring)-3---3-3-3-3-3-3-3-3-3-|
D|--5---------5-5-5-5-5---0-------3---3-3-3-3-3-3-3-3-3-|


[Instrumental Lead]

E|-----------------------------------------------|
B|----11----------10----------11----13-13-11-10--|
G|-12----12-12-12----12-12-12----12--------------|
D|-----------------------------------------------|
A|-----------------------------------------------|
D|-----------------------------------------------|


[Verse] x2

      xxx xxx   xx               xxx xxx   xx
E|-----------------------------------------------------------|
B|-----------------------------------------------------------|
G|-----------------------------------------------------------|
D|--0-000-000-0-00-------------0-000-000-0-00----------5-----|
A|--0-000-000-0-008-8-6h8p6-5~-0-000-000-0-008-8-6h8p6---5~--|
D|--0-000-000-0-00-------------0-000-000-0-00----------------|


[Pre-Chorus]

      xxxx xx   xxxx xx   xxxx xx
E|---------------------------------------------|
B|---------------------------------------------|
G|---------------------------------------------|
D|--1-1111-11-5-5555-55-0-0000-00-5-------7-8--|
A|--1-1111-11-5-5555-55-0-0000-00-5(ring)-7-8--|
D|--1-1111-11-5-5555-55-0-0000-00-5-------7-8--|

      xxxx xx   xxxx xx   xxxx xx
E|---------------------------------------------|
B|---------------------------------------------|
G|---------------------------------------------|
D|--1-1111-11-5-5555-55-0-0000-00-1-------3-1--|
A|--1-1111-11-5-5555-55-0-0000-00-1(ring)-3-1--|
D|--1-1111-11-5-5555-55-0-0000-00-1-------3-1--|


[Chorus]

E|-----------------------------------|
B|-----------------------------------|
G|-----------------------------------|
D|--5-5-5-5-5-5-5-5-5-5-5-5-7-7-8-8--|
A|--5-5-5-5-5-5-5-5-5-5-5-5-7-7-8-8--|
D|--5-5-5-5-5-5-5-5-5-5-5-5-7-7-8-8--|

E|-----------------------------------|
B|-----------------------------------|
G|------------------5-5-5-5----------|
D|--1-1-1-1-1-1-1-1-5-5-5-5-7-7-8-8--|
A|--1-1-1-1-1-1-1-1-3-3-3-3-7-7-8-8--|
D|--1-1-1-1-1-1-1-1---------7-7-8-8--|


[Chorus Lead] x4

E|-----------------------------------------------|
B|----11----------10----------11----13-13-11-10--|
G|-12----12-12-12----12-12-12----12--------------|
D|-----------------------------------------------|
A|-----------------------------------------------|
D|-----------------------------------------------|


[Riff] x2

                     x
E|--------------------------------------------------------|
B|--------------------------------------------------------|
G|--------------------------------------------------------|
D|--0----------------0-0-----------5-----0----------------|
A|--0--8-8-6h8p6-5~--0-0-8-8-6h8p6---5~--0--8-8-6h8p6-5~--|
D|--0----------------0-0-----------------0----------------|

               x x x
E|------------------------           E|----------|
B|------------------------           B|----------|
G|--5-x-7-x-8-------------           G|----------|
D|--5-x-7-x-8--0-0-0-1/3--           D|--1-------|
A|--3-x-5-x-6--0-0-0-1/3-- last time A|--1(ring)-|
D|-------------0-0-0-1/3--           D|--1-------|


[Outro]

E|---------|
B|---------|
G|---------|
D|--3-1-0--|
A|--3-1-0--|
D|--3-1-0--|


************************************

| /   Slide up
| h   Hammer-on
| p   Pull-off
| ~   Vibrato
| x   Mute note
| b   Bend
| d   Dive

************************************

Baca selengkapnya ›

Streaming Lagu Avenged Sevenfold – This Means War (Tabs):

Lagu yang Berjudul This Means War (Tabs) ini merupakan salah satu lagu dari album Hail to the King Deluxe Edition yang dirilis pada tahun 2013 dan dipopulerkan oleh Avenged Sevenfold. Lagu ini bergenre Rock Barat, telah dilihat sebanyak 51x dan terakhir diperbaharui pada 30 September 2021 oleh Admin.

Bagikan halaman ini:

Share to WhatsApp Share to Facebook Share to Twitter Share to Line
Kritik, Saran dan Request Chord, Silahkan Tinggalkan Di Kolom Komentar:


Disclaimer

Kami melakukan upload manual, Apabila ada kesalahan ataupun kekurangan dari Chord Gitar, Lirik Lagu ataupun Video Youtube, mohon untuk memberitahu kami melalui eMail: chordgitarnet[at]gmail.com.

Chord Gitar, Lirik Lagu dan Video Youtube yang ditampilkan di ChordGitar.Net hanya bertujuan sebagai pembelajaran dan referensi saja. kami tidak menyediakan link download mp3 maupun video, dan jangan lupa tonton video Avenged Sevenfold - This Means War (Tabs) di youtube: https://youtube.com/watch?v=Jgk3u44W2i4.

Search Keyword: Avenged Sevenfold This Means War (Tabs)