Chord Gitar Avenged Sevenfold – Afterlife Intro (Tabs) dan Lirik Lagu

[Intro]
                                                                      ½        F
E|-----------------------|--------------------|-------------------|----------------------|
B|-10\5--6--/13~---6-5-6-|-5--6--/15~-------6-|-5--6--/17~-----15-|-17b--17--18b~--------|
G|-----------------------|--------------------|-------------------|----------------------|
D|-----------------------|--------------------|-------------------|----------------------|
A|-----------------------|--------------------|-------------------|----------------------|
D|-----------------------|--------------------|-------------------|----------------------|


E|-12-13-12---------12-13-12---------12-13-12----|-12-13-12---------12-13-12---------12-13-12----|
B|----------15---------------15---------------15-|----------15---------------15---------------15-|
G|-------------14---------------14---------------|-------------15---------------15---------------|
D|-----------------------------------------------|-----------------------------------------------|
A|-----------------------------------------------|-----------------------------------------------|
D|-----------------------------------------------|-----------------------------------------------|

                                                                                       ½
E|-17-18-17---------17-18-17---------17-18-17----|-17-18-17---------17-18-17---------------------|
B|----------20---------------20---------------20-|----------20---------------20------22b~--------|
G|-------------19---------------19---------------|-------------20---------------20---------------|
D|-----------------------------------------------|-----------------------------------------------|
A|-----------------------------------------------|-----------------------------------------------|
D|-----------------------------------------------|-----------------------------------------------|


************************************

| /  Slide up
| \  Slide down
| ~  Vibrato
| b  Bend
| ½  1/2 tone
| F  Full tone

************************************

Baca selengkapnya ›

Streaming Lagu Avenged Sevenfold – Afterlife Intro (Tabs):

Lagu yang Berjudul Afterlife Intro (Tabs) ini merupakan salah satu lagu dari album Avenged Sevenfold Bonus Track Version yang dirilis pada tahun 2007 dan dipopulerkan oleh Avenged Sevenfold. Lagu ini bergenre Rock Barat, telah dilihat sebanyak 55x dan terakhir diperbaharui pada 30 September 2021 oleh Admin.

Bagikan halaman ini:

Share to WhatsApp Share to Facebook Share to Twitter Share to Line
Kritik, Saran dan Request Chord, Silahkan Tinggalkan Di Kolom Komentar:


Disclaimer

Kami melakukan upload manual, Apabila ada kesalahan ataupun kekurangan dari Chord Gitar, Lirik Lagu ataupun Video Youtube, mohon untuk memberitahu kami melalui eMail: chordgitarnet[at]gmail.com.

Chord Gitar, Lirik Lagu dan Video Youtube yang ditampilkan di ChordGitar.Net hanya bertujuan sebagai pembelajaran dan referensi saja. kami tidak menyediakan link download mp3 maupun video, dan jangan lupa tonton video Avenged Sevenfold - Afterlife Intro (Tabs) di youtube: https://youtube.com/watch?v=HIRNdveLnJI.

Search Keyword: Avenged Sevenfold Afterlife Intro (Tabs)