Chord Gitar Avenged Sevenfold – Waking The Fallen (Tabs) dan Lirik Lagu

Waking the Fallen
 
e|------------------------------------------------------------
B|------------------------------------------------------------
G|------------------------------------------------------------
D|-0/2-2-22-2--0/2-2-22-2--0/2-2-22-2--0/2-2-22-2--0/2-2-22-2-
A|-0/2-2-22-2--0/2-2-22-2--0/2-2-22-2--0/2-2-22-2--0/2-2-22-2-
D|-0/2-2-22-2--0/2-2-22-2--0/2-2-22-2--0/2-2-22-2--0/2-2-22-2-
     : : :: :    : : :: :    : : :: :    : : :: :    : : :: : 
 
e|------------------------------------------------------------
B|------------------------------------------------------------
G|------------------------------------------------------------
D|-0/2-2-22-2--0/2-2-22-2--0/2-2-22-2--0/2-2-22-2--0/2-2-22-2-
A|-0/2-2-22-2--0/2-2-22-2--0/2-2-22-2--0/2-2-22-2--0/2-2-22-2-
D|-0/2-2-22-2--0/2-2-22-2--0/2-2-22-2--0/2-2-22-2--0/2-2-22-2-
     : : :: :    : : :: :    : : :: :    : : :: :    : : :: : 

e|------------------------------------------------------------
B|------------------------------------------------------------
G|------------------------------------------------------------
D|-0/2-2-22-2--0/2-2-22-2--0/2-2-22-2--0/2-2-22-2--0/2-2-22-2-
A|-0/2-2-22-2--0/2-2-22-2--0/2-2-22-2--0/2-2-22-2--0/2-2-22-2-
D|-0/2-2-22-2--0/2-2-22-2--0/2-2-22-2--0/2-2-22-2--0/2-2-22-2-
     : : :: :    : : :: :    : : :: :    : : :: :    : : :: : 
 
e|------------------------------------------------------------
B|------------------------------------------------------------
G|------------------------------------------------------------
D|-2-2-22-2--2-2-22-2--2-2-22-2--2-2-22-2--2-2-22-2-----------
A|-2-2-22-2--2-2-22-2--2-2-22-2--2-2-22-2--2-2-22-2-----------
D|-2-2-22-2--2-2-22-2--2-2-22-2--2-2-22-2--2-2-22-2-----------
   : : :: :  : : :: :  : : :: :  : : :: :  : : :: : 

e|------------------------------------------------------------
B|------------------------------------------------------------
G|------------------------------------------------------------
D|-2-2-22-2--2-2-22-2--2-2-22-2--2-2-22-2--2-2-22-2-----------
A|-2-2-22-2--2-2-22-2--2-2-22-2--2-2-22-2--2-2-22-2-----------
D|-2-2-22-2--2-2-22-2--2-2-22-2--2-2-22-2--2-2-22-2-----------
   : : :: :  : : :: :  : : :: :  : : :: :  : : :: : 

e|------------------------------------------------------------
B|------------------------------------------------------------
G|------------------------------------------------------------
D|-2-2-22-2--2-2-22-2--2-2-22-2--2-2-22-2--2-2-22-2-----------
A|-2-2-22-2--2-2-22-2--2-2-22-2--2-2-22-2--2-2-22-2-----------
D|-2-2-22-2--2-2-22-2--2-2-22-2--2-2-22-2--2-2-22-2-----------
   : : :: :  : : :: :  : : :: :  : : :: :  : : :: : 

e|------------------------------------------------------------
B|------------------------------------------------------------
G|------------------------------------------------------------
D|-2-2-22-2--2-2-22-2--2-2-22-2--2-2-22-2--2-2-22-2-----------
A|-2-2-22-2--2-2-22-2--2-2-22-2--2-2-22-2--2-2-22-2-----------
D|-2-2-22-2--2-2-22-2--2-2-22-2--2-2-22-2--2-2-22-2-----------
   : : :: :  : : :: :  : : :: :  : : :: :  : : :: : 

e|------------------------------------------------------------
B|------------------------------------------------------------
G|------------------------------------------------------------
D|-2-2-22-2--2-2-22-2--2-2-22-2--2-2-22-2--2-2-22-2-----------
A|-2-2-22-2--2-2-22-2--2-2-22-2--2-2-22-2--2-2-22-2-----------
D|-2-2-22-2--2-2-22-2--2-2-22-2--2-2-22-2--2-2-22-2-----------
   : : :: :  : : :: :  : : :: :  : : :: :  : : :: : 

e|------------------------------------------------------------
B|------------------------------------------------------------
G|------------------------------------------------------------
D|-2-2-22-2--2-2-22-2--2-2-22-2--2-2-22-2--2-2-22-2-----------
A|-2-2-22-2--2-2-22-2--2-2-22-2--2-2-22-2--2-2-22-2-----------
D|-2-2-22-2--2-2-22-2--2-2-22-2--2-2-22-2--2-2-22-2-----------
   : : :: :  : : :: :  : : :: :  : : :: :  : : :: : 

e|------------------------------------------------------------
B|------------------------------------------------------------
G|------------------------------------------------------------
D|-2-2-22-2--2-2-22-2--2-2-22-2--2-2-22-2--2-2-22-2-----------
A|-2-2-22-2--2-2-22-2--2-2-22-2--2-2-22-2--2-2-22-2-----------
D|-2-2-22-2--2-2-22-2--2-2-22-2--2-2-22-2--2-2-22-2-----------
   : : :: :  : : :: :  : : :: :  : : :: :  : : :: : 

e|------------------------------------------------------------
B|------------------------------------------------------------
G|------------------------------------------------------------
D|-2-2-22-2--2-2-22-2--2-2-22-2--2-2-22-2--2-2-22-2-----------
A|-2-2-22-2--2-2-22-2--2-2-22-2--2-2-22-2--2-2-22-2-----------
D|-2-2-22-2--2-2-22-2--2-2-22-2--2-2-22-2--2-2-22-2-----------
   : : :: :  : : :: :  : : :: :  : : :: :  : : :: : 

e|---------------------
B|---------------------
G|---------------------
D|-2-2-22-2--2-2-22-2--
A|-2-2-22-2--2-2-22-2--
D|-2-2-22-2--2-2-22-2--
   : : :: :  : : :: :

Baca selengkapnya ›

Streaming Lagu Avenged Sevenfold – Waking The Fallen (Tabs):

Lagu yang Berjudul Waking The Fallen (Tabs) ini merupakan salah satu lagu dari album Walking The Fallen Resurrected yang dirilis pada tahun 2003 dan dipopulerkan oleh Avenged Sevenfold. Lagu ini bergenre Rock Barat, telah dilihat sebanyak 25x dan terakhir diperbaharui pada 29 September 2021 oleh Admin.

Bagikan halaman ini:

Share to WhatsApp Share to Facebook Share to Twitter Share to Line
Kritik, Saran dan Request Chord, Silahkan Tinggalkan Di Kolom Komentar:


Disclaimer

Kami melakukan upload manual, Apabila ada kesalahan ataupun kekurangan dari Chord Gitar, Lirik Lagu ataupun Video Youtube, mohon untuk memberitahu kami melalui eMail: chordgitarnet[at]gmail.com.

Chord Gitar, Lirik Lagu dan Video Youtube yang ditampilkan di ChordGitar.Net hanya bertujuan sebagai pembelajaran dan referensi saja. kami tidak menyediakan link download mp3 maupun video, dan jangan lupa tonton video Avenged Sevenfold - Waking The Fallen (Tabs) di youtube: https://youtube.com/watch?v=TIld9jnqZlA.

Search Keyword: Avenged Sevenfold Waking The Fallen (Tabs)