Chord Gitar Payung Teduh – Untuk Perempuan Yang Sedang Dalam Pelukan dan Lirik Lagu

Chord Versi 1

   --------------
===ORIGINAL CHORD===
   --------------

Melody 1:
    A                Dm7               Bm                 E
e|-------------------------------------------------------------------------|
B|----2---2-------------2---2-------------3---3-------------3---3----------|
G|------2---2-1---2-------2---2-1---2-------2---2-1---2-------2---2-1---2--|
D|--------------2-----0-----------2-----------------2-----------------2----|
A|--0-----------------------------------2----------------------------------|
E|--------------------------------------------------------0----------------|

Change Record: D = Dm7
Intro : A D Bm E
        A D Bm E

A                      D
Tak terasa gelap pun jatuh
  Bm
Diujung malam
  E
menuju pagi yang dingin
A    
Hanya ada sedikit
     D
bintang malam ini
Bm  
mungkin karena kau
        E
sedang cantik cantiknya

Melody 2:
  A             Dm7            Bm         E
e|-----5-4-2--0---------------------7-5-4-----4-5-7-----10-----12----------|
B|-----5-5-3--3--2----2-0-----------7-6-5-----5-5-7---9------9-------------|
G|---4-----------2--------2-------6---------4-------9------9---------------| 2X
D|------------------2-------2-4--------------------------------------------|
A|-------------------------------------------------------------------------|
E|-------------------------------------------------------------------------|

Interlude : A D Bm E
            A D Bm E
            A D Bm E

A               D
lalu mataku merasa malu
 Bm
semakin dalam
   E
ia malu kali ini
A                 D
kadang juga ia takut
Bm                E
tatkala harus berpapasan
                C#m
ditengah pelariannya

*)
           F#m
di malam hari
  C#m    F#m
menuju pagi
  C#m    F#m
sedikit cemas
  C#m    F#m
banyak rindunya

Interlude : F#m Bm D E
            F#m E Bm E
            A D Bm E

*)
           F#m
di malam hari
  C#m    F#m
menuju pagi
  C#m    F#m
sedikit cemas
  C#m    F#m
banyak rindunya

  Bm   D  Dm     E
huuuuu huuuu huuuuu

Outro : A D Bm E
        A D Bm E
        A



Chord Versi 2

Intro : C F Dm G
        C F Dm G

C                      F
tak terasa gelap pun jatuh
  Dm
diujung malam
  G
menuju pagi yang dingin
C
hanya ada sedikit
     F
bintang malam ini
Dm
mungkin karena kau
        G
sedang cantik cantiknya

Interlude : C F Dm G
            C F Dm G
            C F Dm G

C               F
lalu mataku merasa malu
Dm
semakin dalam
   G
ia malu kali ini
C                 F
kadang juga ia takut
Dm                G
tatkala harus berpapasan
                 Em
ditengah pelariannya

*)
          Am
di malam hari
  Em    Am
menuju pagi
  Em    Am
sedikit cemas
  Em    Am
banyak rindunya

Interlude : Am Dm F G
            Am G Dm G
            C F Dm G

*)
          Am
di malam hari
  Em    Am
menuju pagi
  Em    Am
sedikit cemas
  Em    Am
banyak rindunya

  Dm   F  Fm     G
huuuuu huuuu huuuuu

Outro : C F Dm G
        C F Dm G
        C

Baca selengkapnya ›

Streaming Lagu Payung Teduh – Untuk Perempuan Yang Sedang Dalam Pelukan:

Informasi Lagu:

Lagu yang Berjudul Untuk Perempuan Yang Sedang Dalam Pelukan ini merupakan lagu yang dipopulerkan oleh Payung Teduh yang bergenre Pop, telah dilihat sebanyak 41x dan terakhir diperbaharui pada 26 October 2021 oleh Admin.

Bagikan halaman ini:

Share to WhatsApp Share to Facebook Share to Twitter Share to Line
Kritik, Saran dan Request Chord, Silahkan Tinggalkan Di Kolom Komentar:


Disclaimer

Kami melakukan upload manual, Apabila ada kesalahan ataupun kekurangan dari Chord Gitar, Lirik Lagu ataupun Video Youtube, mohon untuk memberitahu kami melalui eMail: chordgitarnet[at]gmail.com.

Chord Gitar, Lirik Lagu dan Video Youtube yang ditampilkan di ChordGitar.Net hanya bertujuan sebagai pembelajaran dan referensi saja. kami tidak menyediakan link download mp3 maupun video, dan jangan lupa tonton video Payung Teduh - Untuk Perempuan Yang Sedang Dalam Pelukan di youtube: https://youtube.com/watch?v=jAYviJQYcAo.

Search Keyword: Payung Teduh Untuk Perempuan Yang Sedang Dalam Pelukan